20151208

The hanging tree deutsch | Das Lied vom Henkersbaum


Аж богдын харуул (Гитарын барилт)

Am    Em    Am        
Dm              C

C       G       Am    F
C       Em    Am

C                 Am
C       G       Am
      
Аж богдын харуул нь ээ хө
Амгалан болоод тайван даа
Албанд морьдсон хүү тань, аав минь дээ хө
Амар болоод мэнд дээ
Албанд морьдсон хүү тань, аав минь дээ хө
Амар болоод мэнд дээ

20150325

iPhone Case with A Lighted Mirror



Instead of using the reflection of iPhone screens or the front cameras to check ourselves out, the innovative iPhone case with an integrated light panel provides the natural balanced soft white lighting that helps to see ourselves clearly.It's very amazing.

20141210

Udriin temdeglel unshih shaardlaggui. #8

Urd shunuus hoish setgel uneheer tavgui yagad ym buu med. :(   Buh zuil neg l sonin nadaas bolood tog tasarchihsan chi ym shig nadaas bolood tsag agaar muudsan ch ym shig nadaas bolood mongoliin sanhuugiin hymral nuurelsen ch ym shig bh l buruu zuil nadaas bolson ym shig tiim hachin setgegdeltei udurjin guniglaj ywlaa. Yagad ym bol...

20140815

One way-Time guitar chord

D                                              A
Бүлээн зүрхний минь гүнрүү урсах хайр чи байсан
Em                                           G
Буцааж боломгүй цаг хугцаа иргээд ирсэн би баярлсан
D                                              A
Бүхнийг мартаж хайрлавал жаргал ирдэгийг ухаарсан
Em                                           G
Бие минь минийх ч сэтгэл минь чинийх

D                                         A                                        Em
Тэнгэрийн оддын тоогоор дундрашгүй далайн хэмжээгээр
G
Би чамд хайртай
D                                         A                                        Em
Нарт хорвоод ганц л байх бурханы өмнө ч гэсэн
C
Би чамд хайртай


D               A                  Em                  G
Хайртай гэдэг үгийг хамаагүй урсгаж болддоггүй ч 
D               A                  Em                  G

Хэлье би чамдаа харамгүй хэлье би чамдаа




Solo tab:
1-7---3---2-3s7------7---3---2-3-3/---------------|
2-------------------------------------------------------|
3-------------------------------------------------------|
4-------------------------------------------------------|
5-------------------------------------------------------|
6-------------------------------------------------------|
repead

20140506

A Sound - Shine on solo tab

intro:
E-----------------------------------
B-----------------------------------
G-----------------------------------
D--7--9--9--7--9--7---------------
A----------------------7--9--9--7--
e------------------------------------     /3x


E--------------------------------|
B--------------------------------|
G--------------------------------|
D--7--9--9--7--9--7------------|
A----------------------7--9--7--|
e---------------------------------|



chorus:
E--------------------------
B-------------------------
G-----9--9--7--6---------
D--7---------------7--9--
A-------------------------
e--------------------------



 solo:
E-----------------------------------------------------------------------
B--17-----------------------------14--15--17--17--15--14-----------
G------14--14--14--16--17----------------------------------16--14--
D-----------------------------14---------------------------------------
A----------------------------------------------------------------------
e-----------------------------------------------------------------------

E---------------------------------------------------------|
B-----------14------14--14--15--17--15--14-----------|
G--14--16--------------------------------------16--15--|
D---------------14---------------------------------------|
A---------------------------------------------------------|
e----------------------------------------------------------|


solo:
E---------------------12--14--14--15--17--12--11--12--14--
B--12--12--13--15--------------------------------------------
G---------------------------------------------------------------
D---------------------------------------------------------------
A---------------------------------------------------------------
e---------------------------------------------------------------

E---------------------12--14s17h14--14--14--12--11--12--14--|
B--12--12--13--15-----------------------------------------------|
G-----------------------------------------------------------------|
D-----------------------------------------------------------------|
A-----------------------------------------------------------------|
e------------------------------------------------------------------|


tab by: saranuul my second tabs (o.O)v

Миний л орох дуртай вэбүүд

1.http://itie.mng.net/
2.http://203.212.28.69/student/
3.http://randommization.com/
4.http://j-tokkyo.com/
5.http://www.ustream.tv/channel/saranuul
6.http://www.ustream.tv/channel/iss-hdev-payload
7.http://www.listentoyoutube.com//
8.http://www.upsidedowntext.com/
9.http://saruul-uhaan.blogspot.com/
10.http://koyukinoblog.blogspot.com/
11.http://translate.google.com/
12.http://www.googlefight.com/
13.http://www.freetranslation.com/
14.http://www.shakespeare-online.com/
15.http://the-structure-of-man.blogspot.com/
16.http://wikipedia.org/
17.http://blog.buttermouth.com/
18.http://www.mea.mn/
19.http://www.maranata.mn/
20.http://mongoliabible.blogspot.com/
21.http://asuk.blog.gogo.mn/
22.http://toli.query.mn/
23.http://guitarpraise.blogspot.com/
24.http://www.instructables.com/
25.http://anukelroy.blogspot.com/
26.http://tuulsaihan.blogspot.com/
27.http://gereltnaran.blog.banjig.net/
28.http://radio_tv.blog.gogo.mn
29.http://www.dynamicdrive.com/
30.http://07161113.blog.fc2.com/
31.http://www.wtfjapanseriously.com
32.http://www3.nhk.or.jp/nhkworld/english/tv/imagine/recommendt.html
33.http://www.videocopilot.net/
34.http://blog.buttermouth.com/2007/06/top-25-places-to-watch-free-movies-and.html
35.http://202.179.31.38/index.php
36.http://mart.mn
37.http://toli.query.mn/
38.http://jonathan.blog.gogo.mn
39.http://isohunt.com
40.http://btjunkie.org
41.http://japanisweird.com
42.http://www.boredpanda.com/
43.http://torrentfreak.com/top-10-most-popular-torrent-sites-of-2013-130106/
44.http://iblogsenglish.blogspot.com/2012/06/10.html
45.http://moldesedicasmoda.blogspot.com/
45.http://www.sendanonymoussms.com/
46.http://worshiptutorials.com/
47.http://www.all-guitar-chords.com/
SSSSSSSSSiphoneSSSSSSSS
1.http://apptrackr.org/
2.http://download.pandaapp.com/?app=soft&controller=iphone
3.http://apple-thom.fr/
4.http://www.mbtheme.com
5.http://ipwn3r.blogspot.com/
6.http://edmon.mn/
7.http://tsendl.com/
8.http://www.ithemesky.com/
9.http://www.jailbreakmovies.com
10.https://www.appaddict.org
capability performance

Animes
1.http://magicsubs.jp.mn/
2.http://monsub.com/
3.http://ashikabi.blog.gogo.mn/index.html
4.http://www.anisubs.net/
5.http://old.mnfansubs.net/?cat=8
6.http://www.shurikenteam.com/
7.http://honeyandclover.miniih.com/index.php
8.http://mnsubs.blog.gogo.mn/index.html
9.http://anime.blog.gogo.mn/index.html
10.http://animax.mn/index.php
11.http://www.mnfansubs.org/
12.http://www.dreamsubs.net/
13.http://www.gogoanime.com/
14.http://animeseriesfree.com/
15.http://www.mangareader.net/
16.http://otakuzone.net/
17.http://anicoder.blogspot.com/
18.http://www.anikod.mn
19.http://www.animek.net/
20.http://www.anibros.net
21.http://mglrdanimes.blogspot.com/
22.http://anisubdj.net/

Сонсох дуртай дуу

1.jargal saikhan zurkh chmaig
2.One way Time
3. Zagalmain khuch chadal