intro:
E-----------------------------------
B-----------------------------------
G-----------------------------------
D--7--9--9--7--9--7---------------
A----------------------7--9--9--7--
e------------------------------------     /3x


E--------------------------------|
B--------------------------------|
G--------------------------------|
D--7--9--9--7--9--7------------|
A----------------------7--9--7--|
e---------------------------------|



chorus:
E--------------------------
B-------------------------
G-----9--9--7--6---------
D--7---------------7--9--
A-------------------------
e--------------------------



 solo:
E-----------------------------------------------------------------------
B--17-----------------------------14--15--17--17--15--14-----------
G------14--14--14--16--17----------------------------------16--14--
D-----------------------------14---------------------------------------
A----------------------------------------------------------------------
e-----------------------------------------------------------------------

E---------------------------------------------------------|
B-----------14------14--14--15--17--15--14-----------|
G--14--16--------------------------------------16--15--|
D---------------14---------------------------------------|
A---------------------------------------------------------|
e----------------------------------------------------------|


solo:
E---------------------12--14--14--15--17--12--11--12--14--
B--12--12--13--15--------------------------------------------
G---------------------------------------------------------------
D---------------------------------------------------------------
A---------------------------------------------------------------
e---------------------------------------------------------------

E---------------------12--14s17h14--14--14--12--11--12--14--|
B--12--12--13--15-----------------------------------------------|
G-----------------------------------------------------------------|
D-----------------------------------------------------------------|
A-----------------------------------------------------------------|
e------------------------------------------------------------------|


tab by: saranuul my second tabs (o.O)v

No comments:

Post a Comment

Асуух зүйл байвал бичээд үлдээгээрэй. Таныг хүндэтгэсэн Сарануул

Bottom Ad [Post Page]